  0
SECTION
  2
HEADER
  9
$ACADVER
  1
AC1015
  9
$ACADMAINTVER
 70
     6
  9
$DWGCODEPAGE
  3
ANSI_1254
  9
$INSBASE
 10
0.0
 20
0.0
 30
0.0
  9
$EXTMIN
 10
0.0
 20
0.0
 30
0.0
  9
$EXTMAX
 10
279.4
 20
215.9
 30
0.0
  9
$LIMMIN
 10
0.0
 20
0.0
  9
$LIMMAX
 10
279.4
 20
215.9
  9
$ORTHOMODE
 70
     0
  9
$REGENMODE
 70
     1
  9
$FILLMODE
 70
     1
  9
$QTEXTMODE
 70
     0
  9
$MIRRTEXT
 70
     1
  9
$LTSCALE
 40
1.0
  9
$ATTMODE
 70
     1
  9
$TEXTSIZE
 40
3.5
  9
$TRACEWID
 40
1.0
  9
$TEXTSTYLE
  7
Standard
  9
$CLAYER
  8
0
  9
$CELTYPE
  6
ByLayer
  9
$CECOLOR
 62
   256
  9
$CELTSCALE
 40
1.0
  9
$DISPSILH
 70
     0
  9
$DIMSCALE
 40
1.0
  9
$DIMASZ
 40
3.5
  9
$DIMEXO
 40
1.0
  9
$DIMDLI
 40
3.75
  9
$DIMRND
 40
0.0
  9
$DIMDLE
 40
0.0
  9
$DIMEXE
 40
1.0
  9
$DIMTP
 40
0.0
  9
$DIMTM
 40
0.0
  9
$DIMTXT
 40
3.5
  9
$DIMCEN
 40
2.5
  9
$DIMTSZ
 40
0.0
  9
$DIMTOL
 70
     0
  9
$DIMLIM
 70
     0
  9
$DIMTIH
 70
     1
  9
$DIMTOH
 70
     1
  9
$DIMSE1
 70
     0
  9
$DIMSE2
 70
     0
  9
$DIMTAD
 70
     1
  9
$DIMZIN
 70
     0
  9
$DIMBLK
  1

  9
$DIMASO
 70
     1
  9
$DIMSHO
 70
     1
  9
$DIMPOST
  1

  9
$DIMAPOST
  1

  9
$DIMALT
 70
     0
  9
$DIMALTD
 70
     3
  9
$DIMALTF
 40
0.0393700787
  9
$DIMLFAC
 40
1.0
  9
$DIMTOFL
 70
     1
  9
$DIMTVP
 40
0.0
  9
$DIMTIX
 70
     0
  9
$DIMSOXD
 70
     0
  9
$DIMSAH
 70
     0
  9
$DIMBLK1
  1

  9
$DIMBLK2
  1

  9
$DIMSTYLE
  2
ISO-25
  9
$DIMCLRD
 70
     0
  9
$DIMCLRE
 70
     0
  9
$DIMCLRT
 70
     0
  9
$DIMTFAC
 40
1.0
  9
$DIMGAP
 40
1.524
  9
$DIMJUST
 70
     0
  9
$DIMSD1
 70
     0
  9
$DIMSD2
 70
     0
  9
$DIMTOLJ
 70
     0
  9
$DIMTZIN
 70
     0
  9
$DIMALTZ
 70
     0
  9
$DIMALTTZ
 70
     0
  9
$DIMUPT
 70
     0
  9
$DIMDEC
 70
     2
  9
$DIMTDEC
 70
     2
  9
$DIMALTU
 70
     2
  9
$DIMALTTD
 70
     3
  9
$DIMTXSTY
  7
Standard
  9
$DIMAUNIT
 70
     0
  9
$DIMADEC
 70
     2
  9
$DIMALTRND
 40
0.0
  9
$DIMAZIN
 70
     0
  9
$DIMDSEP
 70
    44
  9
$DIMATFIT
 70
     3
  9
$DIMFRAC
 70
     0
  9
$DIMLDRBLK
  1

  9
$DIMLUNIT
 70
     2
  9
$DIMLWD
 70
    -2
  9
$DIMLWE
 70
    -2
  9
$DIMTMOVE
 70
     0
  9
$LUNITS
 70
     2
  9
$LUPREC
 70
     2
  9
$SKETCHINC
 40
1.0
  9
$FILLETRAD
 40
10.0
  9
$AUNITS
 70
     0
  9
$AUPREC
 70
     2
  9
$MENU
  1
.
  9
$ELEVATION
 40
0.0
  9
$PELEVATION
 40
0.0
  9
$THICKNESS
 40
0.0
  9
$LIMCHECK
 70
     0
  9
$CHAMFERA
 40
0.0
  9
$CHAMFERB
 40
0.0
  9
$CHAMFERC
 40
0.0
  9
$CHAMFERD
 40
0.0
  9
$SKPOLY
 70
     0
  9
$TDCREATE
 40
2458985.65098419
  9
$TDUCREATE
 40
2458985.52598419
  9
$TDUPDATE
 40
2458985.650984502
  9
$TDUUPDATE
 40
2458985.525984502
  9
$TDINDWG
 40
0.0000000116
  9
$TDUSRTIMER
 40
0.0000000116
  9
$USRTIMER
 70
     1
  9
$ANGBASE
 50
0.0
  9
$ANGDIR
 70
     0
  9
$PDMODE
 70
     0
  9
$PDSIZE
 40
-1.0
  9
$PLINEWID
 40
0.0
  9
$SPLFRAME
 70
     0
  9
$SPLINETYPE
 70
     6
  9
$SPLINESEGS
 70
     8
  9
$HANDSEED
  5
CC
  9
$SURFTAB1
 70
     6
  9
$SURFTAB2
 70
     6
  9
$SURFTYPE
 70
     6
  9
$SURFU
 70
     6
  9
$SURFV
 70
     6
  9
$UCSBASE
  2

  9
$UCSNAME
  2

  9
$UCSORG
 10
0.0
 20
0.0
 30
0.0
  9
$UCSXDIR
 10
1.0
 20
0.0
 30
0.0
  9
$UCSYDIR
 10
0.0
 20
1.0
 30
0.0
  9
$UCSORTHOREF
  2

  9
$UCSORTHOVIEW
 70
     0
  9
$UCSORGTOP
 10
0.0
 20
0.0
 30
0.0
  9
$UCSORGBOTTOM
 10
0.0
 20
0.0
 30
0.0
  9
$UCSORGLEFT
 10
0.0
 20
0.0
 30
0.0
  9
$UCSORGRIGHT
 10
0.0
 20
0.0
 30
0.0
  9
$UCSORGFRONT
 10
0.0
 20
0.0
 30
0.0
  9
$UCSORGBACK
 10
0.0
 20
0.0
 30
0.0
  9
$PUCSBASE
  2

  9
$PUCSNAME
  2

  9
$PUCSORG
 10
0.0
 20
0.0
 30
0.0
  9
$PUCSXDIR
 10
1.0
 20
0.0
 30
0.0
  9
$PUCSYDIR
 10
0.0
 20
1.0
 30
0.0
  9
$PUCSORTHOREF
  2

  9
$PUCSORTHOVIEW
 70
     0
  9
$PUCSORGTOP
 10
0.0
 20
0.0
 30
0.0
  9
$PUCSORGBOTTOM
 10
0.0
 20
0.0
 30
0.0
  9
$PUCSORGLEFT
 10
0.0
 20
0.0
 30
0.0
  9
$PUCSORGRIGHT
 10
0.0
 20
0.0
 30
0.0
  9
$PUCSORGFRONT
 10
0.0
 20
0.0
 30
0.0
  9
$PUCSORGBACK
 10
0.0
 20
0.0
 30
0.0
  9
$USERI1
 70
     0
  9
$USERI2
 70
     0
  9
$USERI3
 70
     0
  9
$USERI4
 70
     0
  9
$USERI5
 70
     0
  9
$USERR1
 40
0.0
  9
$USERR2
 40
0.0
  9
$USERR3
 40
0.0
  9
$USERR4
 40
0.0
  9
$USERR5
 40
0.0
  9
$WORLDVIEW
 70
     1
  9
$SHADEDGE
 70
     3
  9
$SHADEDIF
 70
    70
  9
$TILEMODE
 70
     1
  9
$MAXACTVP
 70
    64
  9
$PINSBASE
 10
0.0
 20
0.0
 30
0.0
  9
$PLIMCHECK
 70
     0
  9
$PEXTMIN
 10
1.0000000000E+20
 20
1.0000000000E+20
 30
1.0000000000E+20
  9
$PEXTMAX
 10
-1.0000000000E+20
 20
-1.0000000000E+20
 30
-1.0000000000E+20
  9
$PLIMMIN
 10
0.0
 20
0.0
  9
$PLIMMAX
 10
420.0
 20
297.0
  9
$UNITMODE
 70
     0
  9
$VISRETAIN
 70
     1
  9
$PLINEGEN
 70
     0
  9
$PSLTSCALE
 70
     1
  9
$TREEDEPTH
 70
  3020
  9
$CMLSTYLE
  2
Standard
  9
$CMLJUST
 70
     0
  9
$CMLSCALE
 40
20.0
  9
$PROXYGRAPHICS
 70
     1
  9
$MEASUREMENT
 70
     1
  9
$CELWEIGHT
370
    -1
  9
$ENDCAPS
280
     0
  9
$JOINSTYLE
280
     0
  9
$LWDISPLAY
290
     1
  9
$INSUNITS
 70
     4
  9
$HYPERLINKBASE
  1

  9
$STYLESHEET
  1

  9
$XEDIT
290
     1
  9
$CEPSNTYPE
380
     0
  9
$PSTYLEMODE
290
     1
  9
$FINGERPRINTGUID
  2
{1039db4d-051e-4be4-bca2-f6cd5498902a}
  9
$VERSIONGUID
  2
{FAEB1C32-E019-11D5-929B-00C0DF256EC4}
  9
$EXTNAMES
290
     1
  9
$PSVPSCALE
 40
0.0
  9
$OLESTARTUP
290
     0
  0
ENDSEC
  0
SECTION
  2
CLASSES
  0
CLASS
  1
ACDBDICTIONARYWDFLT
  2
AcDbDictionaryWithDefault
  3
ObjectDBX Classes
 90
        0
280
     0
281
     0
  0
CLASS
  1
VISUALSTYLE
  2
AcDbVisualStyle
  3
ObjectDBX Classes
 90
     4095
280
     0
281
     0
  0
CLASS
  1
MATERIAL
  2
AcDbMaterial
  3
ObjectDBX Classes
 90
     1153
280
     0
281
     0
  0
CLASS
  1
SCALE
  2
AcDbScale
  3
ObjectDBX Classes
 90
     1153
280
     0
281
     0
  0
CLASS
  1
TABLESTYLE
  2
AcDbTableStyle
  3
ObjectDBX Classes
 90
     4095
280
     0
281
     0
  0
CLASS
  1
MLEADERSTYLE
  2
AcDbMLeaderStyle
  3
ACDB_MLEADERSTYLE_CLASS
 90
     4095
280
     0
281
     0
  0
CLASS
  1
SUN
  2
AcDbSun
  3
SCENEOE
 90
     1153
280
     0
281
     0
  0
CLASS
  1
ACDBPLACEHOLDER
  2
AcDbPlaceHolder
  3
ObjectDBX Classes
 90
        0
280
     0
281
     0
  0
CLASS
  1
LAYOUT
  2
AcDbLayout
  3
ObjectDBX Classes
 90
        0
280
     0
281
     0
  0
ENDSEC
  0
SECTION
  2
TABLES
  0
TABLE
  2
VPORT
  5
8
330
0
100
AcDbSymbolTable
 70
     1
  0
VPORT
  5
29
330
8
100
AcDbSymbolTableRecord
100
AcDbViewportTableRecord
  2
*Active
 70
     0
 10
0.0
 20
0.0
 11
1.0
 21
1.0
 12
139.7
 22
107.95
 13
0.0
 23
0.0
 14
10.0
 24
10.0
 15
10.0
 25
10.0
 16
0.0
 26
0.0
 36
1.0
 17
0.0
 27
0.0
 37
0.0
 40
215.9
 41
1.2941176471
 42
50.0
 43
0.0
 44
0.0
 50
0.0
 51
0.0
 71
     0
 72
  2000
 73
     1
 74
     3
 75
     0
 76
     0
 77
     0
 78
     0
281
     0
 65
     1
110
0.0
120
0.0
130
0.0
111
1.0
121
0.0
131
0.0
112
0.0
122
1.0
132
0.0
 79
     0
146
0.0
  0
ENDTAB
  0
TABLE
  2
LTYPE
  5
5
330
0
100
AcDbSymbolTable
 70
     6
  0
LTYPE
  5
14
330
5
100
AcDbSymbolTableRecord
100
AcDbLinetypeTableRecord
  2
ByBlock
 70
     0
  3

 72
    65
 73
     0
 40
0.0
  0
LTYPE
  5
15
330
5
100
AcDbSymbolTableRecord
100
AcDbLinetypeTableRecord
  2
ByLayer
 70
     0
  3

 72
    65
 73
     0
 40
0.0
  0
LTYPE
  5
16
330
5
100
AcDbSymbolTableRecord
100
AcDbLinetypeTableRecord
  2
Continuous
 70
     0
  3
Solid line
 72
    65
 73
     0
 40
0.0
  0
LTYPE
  5
6E
330
5
100
AcDbSymbolTableRecord
100
AcDbLinetypeTableRecord
  2
HIDDEN
 70
     0
  3
Hidden __ __ __ __ __ __ __ __ __ __ __ __ __ __
 72
    65
 73
     2
 40
1.905
 49
1.27
 74
     0
 49
-0.635
 74
     0
  0
LTYPE
  5
6F
330
5
100
AcDbSymbolTableRecord
100
AcDbLinetypeTableRecord
  2
PHANTOM
 70
     0
  3
Phantom ______  __  __  ______  __  __  ______
 72
    65
 73
     6
 40
12.7
 49
6.35
 74
     0
 49
-1.27
 74
     0
 49
1.27
 74
     0
 49
-1.27
 74
     0
 49
1.27
 74
     0
 49
-1.27
 74
     0
  0
LTYPE
  5
70
330
5
100
AcDbSymbolTableRecord
100
AcDbLinetypeTableRecord
  2
CENTER
 70
     0
  3
Center ____ _ ____ _ ____ _ ____ _ ____ _ ____
 72
    65
 73
     4
 40
10.16
 49
6.35
 74
     0
 49
-1.27
 74
     0
 49
1.27
 74
     0
 49
-1.27
 74
     0
  0
LTYPE
  5
71
330
5
100
AcDbSymbolTableRecord
100
AcDbLinetypeTableRecord
  2
CENTERX2
 70
     0
  3
Center (2x) ________  __  ________  __  _____
 72
    65
 73
     4
 40
20.32
 49
12.7
 74
     0
 49
-2.54
 74
     0
 49
2.54
 74
     0
 49
-2.54
 74
     0
  0
LTYPE
  5
72
330
5
100
AcDbSymbolTableRecord
100
AcDbLinetypeTableRecord
  2
DOT2
 70
     0
  3
Dot (.5x) ........................................
 72
    65
 73
     2
 40
0.635
 49
0.0
 74
     0
 49
-0.635
 74
     0
  0
ENDTAB
  0
TABLE
  2
LAYER
  5
2
330
0
100
AcDbSymbolTable
 70
    17
  0
LAYER
  5
10
330
2
100
AcDbSymbolTableRecord
100
AcDbLayerTableRecord
  2
0
 70
     0
 62
     7
  6
Continuous
370
    -3
390
F
  0
LAYER
  5
73
330
2
100
AcDbSymbolTableRecord
100
AcDbLayerTableRecord
  2
FORMAT
 70
     0
 62
     7
  6
Continuous
370
    -3
390
F
  0
LAYER
  5
74
330
2
100
AcDbSymbolTableRecord
100
AcDbLayerTableRecord
  2
YARDIMCI_GEOMETRI
 70
     0
 62
    -6
  6
Continuous
290
     0
370
    -3
390
F
  0
LAYER
  5
75
330
2
100
AcDbSymbolTableRecord
100
AcDbLayerTableRecord
  2
SAYFA_CERCEVESI
 70
     0
 62
     7
  6
Continuous
370
    25
390
F
  0
LAYER
  5
76
330
2
100
AcDbSymbolTableRecord
100
AcDbLayerTableRecord
  2
ANTET
 70
     0
 62
     7
  6
Continuous
370
    -3
390
F
  0
LAYER
  5
77
330
2
100
AcDbSymbolTableRecord
100
AcDbLayerTableRecord
  2
OLCU
 70
     0
 62
   150
  6
Continuous
370
    -3
390
F
  0
LAYER
  5
78
330
2
100
AcDbSymbolTableRecord
100
AcDbLayerTableRecord
  2
METIN
 70
     0
 62
    96
  6
Continuous
370
    -3
390
F
  0
LAYER
  5
79
330
2
100
AcDbSymbolTableRecord
100
AcDbLayerTableRecord
  2
BALON
 70
     0
 62
     5
  6
Continuous
370
    -3
390
F
  0
LAYER
  5
7A
330
2
100
AcDbSymbolTableRecord
100
AcDbLayerTableRecord
  2
VURGU
 70
     0
 62
     7
  6
Continuous
370
    -3
390
F
  0
LAYER
  5
7B
330
2
100
AcDbSymbolTableRecord
100
AcDbLayerTableRecord
  2
SILIK
 70
     0
 62
     7
  6
Continuous
370
    -3
390
F
  0
LAYER
  5
7C
330
2
100
AcDbSymbolTableRecord
100
AcDbLayerTableRecord
  2
MODEL
 70
     0
 62
     7
  6
Continuous
370
    -3
390
F
  0
LAYER
  5
7D
330
2
100
AcDbSymbolTableRecord
100
AcDbLayerTableRecord
  2
DETAYLANDıRMA
 70
     0
 62
   190
  6
Continuous
370
    -3
390
F
  0
LAYER
  5
7E
330
2
100
AcDbSymbolTableRecord
100
AcDbLayerTableRecord
  2
TOLERANS
 70
     0
 62
   230
  6
Continuous
370
    -3
390
F
  0
LAYER
  5
7F
330
2
100
AcDbSymbolTableRecord
100
AcDbLayerTableRecord
  2
MERKEZ_CIZGILERI
 70
     0
 62
    30
  6
Continuous
370
    -3
390
F
  0
LAYER
  5
80
330
2
100
AcDbSymbolTableRecord
100
AcDbLayerTableRecord
  2
KESIT-DETAY_CIZGILERI
 70
     0
 62
     7
  6
Continuous
370
    -3
390
F
  0
LAYER
  5
81
330
2
100
AcDbSymbolTableRecord
100
AcDbLayerTableRecord
  2
\U+041E\U+0421\U+0415\U+0412\U+042B\U+0415
 70
     0
 62
     7
  6
Continuous
370
    -3
390
F
  0
LAYER
  5
82
330
2
100
AcDbSymbolTableRecord
100
AcDbLayerTableRecord
  2
\U+0412\U+041E\U+0414\U+042F\U+041D\U+042B\U+0415_\U+0417\U+041D\U+0410\U+041A\U+0418
 70
     0
 62
    11
  6
Continuous
370
    -3
390
F
  0
ENDTAB
  0
TABLE
  2
STYLE
  5
3
330
0
100
AcDbSymbolTable
 70
     1
  0
STYLE
  5
11
330
3
100
AcDbSymbolTableRecord
100
AcDbTextStyleTableRecord
  2
Standard
 70
     0
 40
0.0
 41
1.0
 50
0.0
 71
     0
 42
3.5
  3
txt
  4

  0
ENDTAB
  0
TABLE
  2
VIEW
  5
6
330
0
100
AcDbSymbolTable
 70
     0
  0
ENDTAB
  0
TABLE
  2
UCS
  5
7
330
0
100
AcDbSymbolTable
 70
     0
  0
ENDTAB
  0
TABLE
  2
APPID
  5
9
330
0
100
AcDbSymbolTable
 70
     1
  0
APPID
  5
12
330
9
100
AcDbSymbolTableRecord
100
AcDbRegAppTableRecord
  2
ACAD
 70
     0
  0
ENDTAB
  0
TABLE
  2
DIMSTYLE
  5
A
330
0
100
AcDbSymbolTable
 70
     1
100
AcDbDimStyleTable
  0
DIMSTYLE
105
27
330
A
100
AcDbSymbolTableRecord
100
AcDbDimStyleTableRecord
  2
ISO-25
 70
     0
 41
2.5
 42
0.625
 43
3.75
 44
1.25
 73
     0
 74
     0
 77
     1
 78
     8
140
2.5
141
2.5
143
0.0393700787
147
0.625
171
     3
172
     1
178
     0
271
     2
272
     2
274
     3
278
    44
283
     0
284
     8
340
11
  0
ENDTAB
  0
TABLE
  2
BLOCK_RECORD
  5
1
330
0
100
AcDbSymbolTable
 70
     2
  0
BLOCK_RECORD
  5
1F
330
1
100
AcDbSymbolTableRecord
100
AcDbBlockTableRecord
  2
*Model_Space
340
22
  0
BLOCK_RECORD
  5
1B
330
1
100
AcDbSymbolTableRecord
100
AcDbBlockTableRecord
  2
*Paper_Space
340
1E
  0
BLOCK_RECORD
  5
23
330
1
100
AcDbSymbolTableRecord
100
AcDbBlockTableRecord
  2
*Paper_Space0
340
26
  0
BLOCK_RECORD
  5
87
330
1
100
AcDbSymbolTableRecord
100
AcDbBlockTableRecord
  2
SW_CENTERMARKSYMBOL_0
340
0
102
{BLKREFS
331
92
102
}
  0
ENDTAB
  0
ENDSEC
  0
SECTION
  2
BLOCKS
  0
BLOCK
  5
20
330
1F
100
AcDbEntity
  8
0
100
AcDbBlockBegin
  2
*Model_Space
 70
     0
 10
0.0
 20
0.0
 30
0.0
  3
*Model_Space
  1

  0
ENDBLK
  5
21
330
1F
100
AcDbEntity
  8
0
100
AcDbBlockEnd
  0
BLOCK
  5
1C
330
1B
100
AcDbEntity
 67
     1
  8
0
100
AcDbBlockBegin
  2
*Paper_Space
 70
     0
 10
0.0
 20
0.0
 30
0.0
  3
*Paper_Space
  1

  0
ENDBLK
  5
1D
330
1B
100
AcDbEntity
 67
     1
  8
0
100
AcDbBlockEnd
  0
BLOCK
  5
24
330
23
100
AcDbEntity
  8
0
100
AcDbBlockBegin
  2
*Paper_Space0
 70
     0
 10
0.0
 20
0.0
 30
0.0
  3
*Paper_Space0
  1

  0
ENDBLK
  5
25
330
23
100
AcDbEntity
  8
0
100
AcDbBlockEnd
  0
BLOCK
  5
88
330
87
100
AcDbEntity
  8
0
100
AcDbBlockBegin
  2
SW_CENTERMARKSYMBOL_0
 70
     0
 10
0.0
 20
0.0
 30
0.0
  3
SW_CENTERMARKSYMBOL_0
  1

  0
LINE
  5
8A
330
87
100
AcDbEntity
  8
FORMAT
 62
     0
100
AcDbLine
 10
0.0
 20
0.0
 30
0.0
 11
0.0
 21
2.5
 31
0.0
  0
LINE
  5
8B
330
87
100
AcDbEntity
  8
FORMAT
 62
     0
100
AcDbLine
 10
0.0
 20
0.0
 30
0.0
 11
-2.5
 21
0.0
 31
0.0
  0
LINE
  5
8C
330
87
100
AcDbEntity
  8
FORMAT
 62
     0
100
AcDbLine
 10
0.0
 20
0.0
 30
0.0
 11
0.0
 21
-2.5
 31
0.0
  0
LINE
  5
8D
330
87
100
AcDbEntity
  8
FORMAT
 62
     0
100
AcDbLine
 10
0.0
 20
0.0
 30
0.0
 11
2.5
 21
0.0
 31
0.0
  0
LINE
  5
8E
330
87
100
AcDbEntity
  8
FORMAT
 62
     0
100
AcDbLine
 10
0.0
 20
5.0
 30
0.0
 11
0.0
 21
63.5
 31
0.0
  0
LINE
  5
8F
330
87
100
AcDbEntity
  8
FORMAT
 62
     0
100
AcDbLine
 10
-5.0
 20
0.0
 30
0.0
 11
-63.5
 21
0.0
 31
0.0
  0
LINE
  5
90
330
87
100
AcDbEntity
  8
FORMAT
 62
     0
100
AcDbLine
 10
0.0
 20
-5.0
 30
0.0
 11
0.0
 21
-63.5
 31
0.0
  0
LINE
  5
91
330
87
100
AcDbEntity
  8
FORMAT
 62
     0
100
AcDbLine
 10
5.0
 20
0.0
 30
0.0
 11
63.5
 21
0.0
 31
0.0
  0
ENDBLK
  5
89
330
87
100
AcDbEntity
  8
0
100
AcDbBlockEnd
  0
ENDSEC
  0
SECTION
  2
ENTITIES
  0
CIRCLE
  5
83
330
1F
100
AcDbEntity
  8
0
  6
Continuous
 62
     7
370
    25
100
AcDbCircle
 10
144.5406573754
 20
113.402077875
 30
0.0
 40
37.49999999999999
  0
CIRCLE
  5
84
330
1F
100
AcDbEntity
  8
0
  6
Continuous
 62
     7
370
    25
100
AcDbCircle
 10
144.5406573754
 20
113.402077875
 30
0.0
 40
32.99999999999999
  0
CIRCLE
  5
85
330
1F
100
AcDbEntity
  8
0
  6
Continuous
 62
     7
370
    25
100
AcDbCircle
 10
144.5406573754
 20
113.402077875
 30
0.0
 40
46.00000000000001
  0
CIRCLE
  5
86
330
1F
100
AcDbEntity
  8
0
  6
Continuous
 62
     7
370
    25
100
AcDbCircle
 10
144.5406573754
 20
113.402077875
 30
0.0
 40
61.00000000000001
  0
INSERT
  5
92
330
1F
100
AcDbEntity
  8
FORMAT
 62
     7
100
AcDbBlockReference
  2
SW_CENTERMARKSYMBOL_0
 10
144.5406573754
 20
113.402077875
 30
0.0
  0
LINE
  5
93
330
1F
100
AcDbEntity
  8
0
  6
Continuous
 62
     7
370
    25
100
AcDbLine
 10
205.5406573754
 20
197.0412943984
 30
0.0
 11
205.5406573754
 21
213.0412943984
 31
0.0
  0
LINE
  5
94
330
1F
100
AcDbEntity
  8
0
  6
Continuous
 62
     7
370
    25
100
AcDbLine
 10
83.5406573754
 20
213.0412943984
 30
0.0
 11
83.5406573754
 21
197.0412943984
 31
0.0
  0
LINE
  5
95
330
1F
100
AcDbEntity
  8
0
  6
Continuous
 62
     7
370
    25
100
AcDbLine
 10
190.5406573754
 20
213.0412943984
 30
0.0
 11
182.0406573754
 21
230.0412943984
 31
0.0
  0
LINE
  5
96
330
1F
100
AcDbEntity
  8
0
  6
Continuous
 62
     7
370
    25
100
AcDbLine
 10
107.0406573754
 20
230.0412943984
 30
0.0
 11
98.5406573754
 21
213.0412943984
 31
0.0
  0
LINE
  5
97
330
1F
100
AcDbEntity
  8
0
  6
Continuous
 62
     7
370
    25
100
AcDbLine
 10
182.0406573754
 20
230.0412943984
 30
0.0
 11
182.0406573754
 21
327.0412943984
 31
0.0
  0
LINE
  5
98
330
1F
100
AcDbEntity
  8
0
  6
Continuous
 62
     7
370
    25
100
AcDbLine
 10
107.0406573754
 20
327.0412943984
 30
0.0
 11
107.0406573754
 21
230.0412943984
 31
0.0
  0
LINE
  5
99
330
1F
100
AcDbEntity
  8
0
  6
Continuous
 62
     7
370
    25
100
AcDbLine
 10
205.5406573754
 20
197.0412943984
 30
0.0
 11
83.5406573754
 21
197.0412943984
 31
0.0
  0
LINE
  5
9A
330
1F
100
AcDbEntity
  8
0
  6
Continuous
 62
     7
370
    25
100
AcDbLine
 10
205.5406573754
 20
213.0412943984
 30
0.0
 11
83.5406573754
 21
213.0412943984
 31
0.0
  0
LINE
  5
9B
330
1F
100
AcDbEntity
  8
0
  6
Continuous
 62
     7
370
    25
100
AcDbLine
 10
182.0406573754
 20
230.0412943984
 30
0.0
 11
107.0406573754
 21
230.0412943984
 31
0.0
  0
LINE
  5
9C
330
1F
100
AcDbEntity
  8
0
  6
Continuous
 62
     7
370
    25
100
AcDbLine
 10
182.0406573754
 20
327.0412943984
 30
0.0
 11
107.0406573754
 21
327.0412943984
 31
0.0
  0
LINE
  5
9D
330
1F
100
AcDbEntity
  8
0
  6
Continuous
 62
     7
370
    25
100
AcDbLine
 10
263.2375513056
 20
52.402077875
 30
0.0
 11
279.2375513056
 21
52.402077875
 31
0.0
  0
LINE
  5
9E
330
1F
100
AcDbEntity
  8
0
  6
Continuous
 62
     7
370
    25
100
AcDbLine
 10
279.2375513056
 20
174.402077875
 30
0.0
 11
263.2375513056
 21
174.402077875
 31
0.0
  0
LINE
  5
9F
330
1F
100
AcDbEntity
  8
0
  6
Continuous
 62
     7
370
    25
100
AcDbLine
 10
279.2375513056
 20
67.402077875
 30
0.0
 11
296.2375513056
 21
75.902077875
 31
0.0
  0
LINE
  5
A0
330
1F
100
AcDbEntity
  8
0
  6
Continuous
 62
     7
370
    25
100
AcDbLine
 10
296.2375513056
 20
150.902077875
 30
0.0
 11
279.2375513056
 21
159.402077875
 31
0.0
  0
LINE
  5
A1
330
1F
100
AcDbEntity
  8
0
  6
Continuous
 62
     7
370
    25
100
AcDbLine
 10
296.2375513056
 20
75.902077875
 30
0.0
 11
393.2375513056
 21
75.902077875
 31
0.0
  0
LINE
  5
A2
330
1F
100
AcDbEntity
  8
0
  6
Continuous
 62
     7
370
    25
100
AcDbLine
 10
393.2375513056
 20
150.902077875
 30
0.0
 11
296.2375513056
 21
150.902077875
 31
0.0
  0
LINE
  5
A3
330
1F
100
AcDbEntity
  8
0
  6
Continuous
 62
     7
370
    25
100
AcDbLine
 10
263.2375513056
 20
113.402077875
 30
0.0
 11
263.2375513056
 21
174.402077875
 31
0.0
  0
LINE
  5
A4
330
1F
100
AcDbEntity
  8
0
  6
Continuous
 62
     7
370
    25
100
AcDbLine
 10
263.2375513056
 20
52.402077875
 30
0.0
 11
263.2375513056
 21
113.402077875
 31
0.0
  0
LINE
  5
A5
330
1F
100
AcDbEntity
  8
0
  6
Continuous
 62
     7
370
    25
100
AcDbLine
 10
279.2375513056
 20
113.402077875
 30
0.0
 11
279.2375513056
 21
174.402077875
 31
0.0
  0
LINE
  5
A6
330
1F
100
AcDbEntity
  8
0
  6
Continuous
 62
     7
370
    25
100
AcDbLine
 10
279.2375513056
 20
52.402077875
 30
0.0
 11
279.2375513056
 21
113.402077875
 31
0.0
  0
LINE
  5
A7
330
1F
100
AcDbEntity
  8
0
  6
Continuous
 62
     7
370
    25
100
AcDbLine
 10
296.2375513056
 20
113.402077875
 30
0.0
 11
296.2375513056
 21
150.902077875
 31
0.0
  0
LINE
  5
A8
330
1F
100
AcDbEntity
  8
0
  6
Continuous
 62
     7
370
    25
100
AcDbLine
 10
296.2375513056
 20
75.902077875
 30
0.0
 11
296.2375513056
 21
113.402077875
 31
0.0
  0
LINE
  5
A9
330
1F
100
AcDbEntity
  8
0
  6
Continuous
 62
     7
370
    25
100
AcDbLine
 10
393.2375513056
 20
113.402077875
 30
0.0
 11
393.2375513056
 21
150.902077875
 31
0.0
  0
LINE
  5
AA
330
1F
100
AcDbEntity
  8
0
  6
Continuous
 62
     7
370
    25
100
AcDbLine
 10
393.2375513056
 20
75.902077875
 30
0.0
 11
393.2375513056
 21
113.402077875
 31
0.0
  0
LINE
  5
AB
330
1F
100
AcDbEntity
  8
0
  6
Continuous
 62
     7
370
    25
100
AcDbLine
 10
19.9822237624
 20
174.402077875
 30
0.0
 11
3.9822237624
 21
174.402077875
 31
0.0
  0
LINE
  5
AC
330
1F
100
AcDbEntity
  8
0
  6
Continuous
 62
     7
370
    25
100
AcDbLine
 10
3.9822237624
 20
52.402077875
 30
0.0
 11
19.9822237624
 21
52.402077875
 31
0.0
  0
LINE
  5
AD
330
1F
100
AcDbEntity
  8
0
  6
Continuous
 62
     7
370
    25
100
AcDbLine
 10
3.9822237624
 20
159.402077875
 30
0.0
 11
-13.0177762376
 21
150.902077875
 31
0.0
  0
LINE
  5
AE
330
1F
100
AcDbEntity
  8
0
  6
Continuous
 62
     7
370
    25
100
AcDbLine
 10
-13.0177762376
 20
75.902077875
 30
0.0
 11
3.9822237624
 21
67.402077875
 31
0.0
  0
LINE
  5
AF
330
1F
100
AcDbEntity
  8
0
  6
Continuous
 62
     7
370
    25
100
AcDbLine
 10
-13.0177762376
 20
150.902077875
 30
0.0
 11
-110.0177762376
 21
150.902077875
 31
0.0
  0
LINE
  5
B0
330
1F
100
AcDbEntity
  8
0
  6
Continuous
 62
     7
370
    25
100
AcDbLine
 10
-110.0177762376
 20
75.902077875
 30
0.0
 11
-13.0177762376
 21
75.902077875
 31
0.0
  0
LINE
  5
B1
330
1F
100
AcDbEntity
  8
0
  6
Continuous
 62
     7
370
    25
100
AcDbLine
 10
19.9822237624
 20
174.402077875
 30
0.0
 11
19.9822237624
 21
52.402077875
 31
0.0
  0
LINE
  5
B2
330
1F
100
AcDbEntity
  8
0
  6
Continuous
 62
     7
370
    25
100
AcDbLine
 10
3.9822237624
 20
174.402077875
 30
0.0
 11
3.9822237624
 21
52.402077875
 31
0.0
  0
LINE
  5
B3
330
1F
100
AcDbEntity
  8
0
  6
Continuous
 62
     7
370
    25
100
AcDbLine
 10
-13.0177762376
 20
150.902077875
 30
0.0
 11
-13.0177762376
 21
75.902077875
 31
0.0
  0
LINE
  5
B4
330
1F
100
AcDbEntity
  8
0
  6
Continuous
 62
     7
370
    25
100
AcDbLine
 10
-110.0177762376
 20
150.902077875
 30
0.0
 11
-110.0177762376
 21
75.902077875
 31
0.0
  0
LINE
  5
B5
330
1F
100
AcDbEntity
  8
0
  6
Continuous
 62
     7
370
    25
100
AcDbLine
 10
83.5406573754
 20
18.896315276
 30
0.0
 11
83.5406573754
 21
2.896315276
 31
0.0
  0
LINE
  5
B6
330
1F
100
AcDbEntity
  8
0
  6
Continuous
 62
     7
370
    25
100
AcDbLine
 10
205.5406573754
 20
2.896315276
 30
0.0
 11
205.5406573754
 21
18.896315276
 31
0.0
  0
LINE
  5
B7
330
1F
100
AcDbEntity
  8
0
  6
Continuous
 62
     7
370
    25
100
AcDbLine
 10
98.5406573754
 20
2.896315276
 30
0.0
 11
107.0406573754
 21
-14.103684724
 31
0.0
  0
LINE
  5
B8
330
1F
100
AcDbEntity
  8
0
  6
Continuous
 62
     7
370
    25
100
AcDbLine
 10
182.0406573754
 20
-14.103684724
 30
0.0
 11
190.5406573754
 21
2.896315276
 31
0.0
  0
LINE
  5
B9
330
1F
100
AcDbEntity
  8
0
  6
Continuous
 62
     7
370
    25
100
AcDbLine
 10
107.0406573754
 20
-14.103684724
 30
0.0
 11
107.0406573754
 21
-111.103684724
 31
0.0
  0
LINE
  5
BA
330
1F
100
AcDbEntity
  8
0
  6
Continuous
 62
     7
370
    25
100
AcDbLine
 10
182.0406573754
 20
-111.103684724
 30
0.0
 11
182.0406573754
 21
-14.103684724
 31
0.0
  0
LINE
  5
BB
330
1F
100
AcDbEntity
  8
0
  6
Continuous
 62
     7
370
    25
100
AcDbLine
 10
83.5406573754
 20
18.896315276
 30
0.0
 11
205.5406573754
 21
18.896315276
 31
0.0
  0
LINE
  5
BC
330
1F
100
AcDbEntity
  8
0
  6
Continuous
 62
     7
370
    25
100
AcDbLine
 10
83.5406573754
 20
2.896315276
 30
0.0
 11
205.5406573754
 21
2.896315276
 31
0.0
  0
LINE
  5
BD
330
1F
100
AcDbEntity
  8
0
  6
Continuous
 62
     7
370
    25
100
AcDbLine
 10
107.0406573754
 20
-14.103684724
 30
0.0
 11
182.0406573754
 21
-14.103684724
 31
0.0
  0
LINE
  5
BE
330
1F
100
AcDbEntity
  8
0
  6
Continuous
 62
     7
370
    25
100
AcDbLine
 10
107.0406573754
 20
-111.103684724
 30
0.0
 11
182.0406573754
 21
-111.103684724
 31
0.0
  0
LINE
  5
BF
330
1F
100
AcDbEntity
  8
0
  6
Continuous
 62
     7
370
    25
100
AcDbLine
 10
303.5826580459
 20
4.1902732185
 30
0.0
 11
234.9933002708
 21
-35.4055202049
 31
0.0
  0
LINE
  5
C0
330
1F
100
AcDbEntity
  8
0
  6
Continuous
 62
     7
370
    25
100
AcDbLine
 10
272.4902527447
 20
-100.3591848834
 30
0.0
 11
341.0796105198
 21
-60.76339146
 31
0.0
  0
LINE
  5
C1
330
1F
100
AcDbEntity
  8
0
  6
Continuous
 62
     7
370
    25
100
AcDbLine
 10
315.1681367166
 20
38.0131553296
 30
0.0
 11
303.8544282176
 21
31.481890435
 31
0.0
  0
LINE
  5
C2
330
1F
100
AcDbEntity
  8
0
  6
Continuous
 62
     7
370
    25
100
AcDbLine
 10
364.8494709084
 20
-74.1760707755
 30
0.0
 11
376.1631794074
 21
-67.6448058809
 31
0.0
  0
LINE
  5
C3
330
1F
100
AcDbEntity
  8
0
  6
Continuous
 62
     7
370
    25
100
AcDbLine
 10
304.7063681467
 20
11.22263602
 30
0.0
 11
300.1569106312
 21
2.2126313313
 31
0.0
  0
LINE
  5
C4
330
1F
100
AcDbEntity
  8
0
  6
Continuous
 62
     7
370
    25
100
AcDbLine
 10
337.653863105
 20
-62.7410333473
 30
0.0
 11
347.7314317431
 21
-63.3070355731
 31
0.0
  0
LWPOLYLINE
  5
C5
330
1F
100
AcDbEntity
  8
0
  6
Continuous
 62
     7
370
    25
100
AcDbPolyline
 90
       52
 70
   128
 43
0.0
 10
303.5826580459
 20
4.1902732185
 10
304.1793380087
 20
4.5134736284
 10
305.4288783213
 20
5.0642371334
 10
306.7451241162
 20
5.483380282
 10
308.1228807727
 20
5.7692489079
 10
309.5567109147
 20
5.9207148181
 10
311.0409558696
 20
5.9371802459
 10
312.5697580007
 20
5.8185802097
 10
314.1370838244
 20
5.5653827698
 10
315.7367478219
 20
5.1785871807
 10
317.3624368499
 20
4.6597199479
 10
319.0077350568
 20
4.0108288034
 10
320.6661492021
 20
3.234474624
 10
322.3311342829
 20
2.333721325
 10
323.9961193636
 20
1.3121237681
 10
325.6545335089
 20
0.1737137323
 10
327.2998317158
 20
-1.0770159983
 10
328.9255207439
 20
-2.4351293647
 10
330.5251847413
 20
-3.8952665139
 10
332.092510565
 20
-5.4516649517
 10
333.6213126962
 20
-7.0981822846
 10
335.1055576511
 20
-8.8283204608
 10
336.539387793
 20
-10.6352514153
 10
337.9171444495
 20
-12.5118440173
 10
339.2333902444
 20
-14.4506922129
 10
340.482930557
 20
-16.4441442543
 10
341.6608340224
 20
-18.4843328968
 10
342.7624519939
 20
-20.5632064481
 10
343.7834368885
 20
-22.6725605439
 10
344.7197593454
 20
-24.8040705272
 10
345.5677241275
 20
-26.9493243021
 10
346.3239847054
 20
-29.0998555318
 10
346.9855564638
 20
-31.2471770522
 10
347.5498284815
 20
-33.3828143662
 10
348.0145738345
 20
-35.498339089
 10
348.3779583852
 20
-37.585402211
 10
348.6385480209
 20
-39.6357670475
 10
348.7953143133
 20
-41.6413417454
 10
348.8476385774
 20
-43.5942112174
 10
348.7953143132
 20
-45.48666838
 10
348.6385480209
 20
-47.3112445694
 10
348.3779583852
 20
-49.0607390168
 10
348.0145738345
 20
-50.728247267
 10
347.5498284815
 20
-52.3071884267
 10
346.9855564638
 20
-53.7913311365
 10
346.3239847054
 20
-55.1748181632
 10
345.5677241275
 20
-56.4521895156
 10
344.7197593454
 20
-57.6184039924
 10
343.7834368885
 20
-58.668859078
 10
342.7624519939
 20
-59.599409106
 10
341.6608340224
 20
-60.4063816205
 10
341.0796105198
 20
-60.76339146
  0
LWPOLYLINE
  5
C6
330
1F
100
AcDbEntity
  8
0
  6
Continuous
 62
     7
370
    25
100
AcDbPolyline
 90
      101
 70
   128
 43
0.0
 10
227.2252722133
 20
-52.5747004475
 10
227.2775964774
 20
-50.6822432848
 10
227.4343627697
 20
-48.8576670955
 10
227.6949524054
 20
-47.1081726481
 10
228.0583369561
 20
-45.4406643979
 10
228.5230823091
 20
-43.8617232382
 10
229.0873543268
 20
-42.3775805283
 10
229.7489260853
 20
-40.9940935016
 10
230.5051866631
 20
-39.7167221493
 10
231.3531514452
 20
-38.5505076724
 10
232.2894739021
 20
-37.5000525869
 10
233.3104587967
 20
-36.5695025589
 10
234.4120767682
 20
-35.7625300443
 10
235.5899802336
 20
-35.082319795
 10
236.8395205462
 20
-34.53155629
 10
238.1557663411
 20
-34.1124131414
 10
239.5335229976
 20
-33.8265445155
 10
240.9673531396
 20
-33.6750786053
 10
242.4515980945
 20
-33.6586131775
 10
243.9804002256
 20
-33.7772132137
 10
245.5477260493
 20
-34.0304106536
 10
247.1473900468
 20
-34.4172062427
 10
248.7730790748
 20
-34.9360734755
 10
250.4183772817
 20
-35.58496462
 10
252.076791427
 20
-36.3613187994
 10
253.7417765078
 20
-37.2620720984
 10
255.4067615885
 20
-38.2836696553
 10
257.0651757338
 20
-39.4220796911
 10
258.7104739407
 20
-40.6728094217
 10
260.3361629688
 20
-42.0309227881
 10
261.9358269662
 20
-43.4910599373
 10
263.5031527899
 20
-45.0474583751
 10
265.0319549211
 20
-46.693975708
 10
266.516199876
 20
-48.4241138842
 10
267.9500300179
 20
-50.2310448387
 10
269.3277866744
 20
-52.1076374407
 10
270.6440324694
 20
-54.0464856363
 10
271.8935727819
 20
-56.0399376777
 10
273.0714762473
 20
-58.0801263202
 10
274.1730942188
 20
-60.1589998715
 10
275.1940791134
 20
-62.2683539673
 10
276.1304015703
 20
-64.3998639506
 10
276.9783663524
 20
-66.5451177255
 10
277.7346269303
 20
-68.6956489552
 10
278.3961986887
 20
-70.8429704756
 10
278.9604707064
 20
-72.9786077896
 10
279.4252160594
 20
-75.0941325124
 10
279.7886006101
 20
-77.1811956344
 10
280.0491902458
 20
-79.2315604709
 10
280.2059565382
 20
-81.2371351688
 10
280.2582808023
 20
-83.1900046408
 10
280.2059565382
 20
-85.0824618034
 10
280.0491902458
 20
-86.9070379928
 10
279.7886006101
 20
-88.6565324402
 10
279.4252160594
 20
-90.3240406904
 10
278.9604707064
 20
-91.9029818501
 10
278.3961986887
 20
-93.3871245599
 10
277.7346269303
 20
-94.7706115866
 10
276.9783663524
 20
-96.047982939
 10
276.1304015703
 20
-97.2141974158
 10
275.1940791134
 20
-98.2646525014
 10
274.1730942188
 20
-99.1952025294
 10
273.0714762473
 20
-100.0021750439
 10
271.8935727819
 20
-100.6823852932
 10
270.6440324694
 20
-101.2331487982
 10
269.3277866744
 20
-101.6522919469
 10
267.9500300179
 20
-101.9381605728
 10
266.516199876
 20
-102.089626483
 10
265.0319549211
 20
-102.1060919108
 10
263.5031527899
 20
-101.9874918746
 10
261.9358269662
 20
-101.7342944347
 10
260.3361629688
 20
-101.3474988456
 10
258.7104739407
 20
-100.8286316128
 10
257.0651757338
 20
-100.1797404682
 10
255.4067615885
 20
-99.4033862888
 10
253.7417765078
 20
-98.5026329898
 10
252.076791427
 20
-97.481035433
 10
250.4183772817
 20
-96.3426253971
 10
248.7730790748
 20
-95.0918956666
 10
247.1473900468
 20
-93.7337823002
 10
245.5477260493
 20
-92.273645151
 10
243.9804002256
 20
-90.7172467131
 10
242.4515980945
 20
-89.0707293803
 10
240.9673531396
 20
-87.3405912041
 10
239.5335229976
 20
-85.5336602495
 10
238.1557663411
 20
-83.6570676476
 10
236.8395205462
 20
-81.7182194519
 10
235.5899802336
 20
-79.7247674106
 10
234.4120767682
 20
-77.684578768
 10
233.3104587967
 20
-75.6057052168
 10
232.2894739021
 20
-73.496351121
 10
231.3531514452
 20
-71.3648411376
 10
230.5051866631
 20
-69.2195873628
 10
229.7489260853
 20
-67.069056133
 10
229.0873543268
 20
-64.9217346126
 10
228.5230823091
 20
-62.7860972987
 10
228.0583369561
 20
-60.6705725759
 10
227.6949524054
 20
-58.5835094539
 10
227.4343627697
 20
-56.5331446173
 10
227.2775964774
 20
-54.5275699195
 10
227.2252722133
 20
-52.5747004475
  0
LWPOLYLINE
  5
C7
330
1F
100
AcDbEntity
  8
0
  6
Continuous
 62
     7
370
    25
100
AcDbPolyline
 90
       94
 70
   128
 43
0.0
 10
230.4072527286
 20
-54.4116186991
 10
230.4604877686
 20
-52.6232433377
 10
230.6199499893
 20
-50.9044917918
 10
230.8849118012
 20
-49.2632063304
 10
231.2541642443
 20
-47.7068757628
 10
231.7260225044
 20
-46.2426012682
 10
232.2983336005
 20
-44.8770639954
 10
232.9684862083
 20
-43.6164945778
 10
233.7334225751
 20
-42.4666447045
 10
234.5896524719
 20
-41.4327608766
 10
235.5332691178
 20
-40.5195604691
 10
236.5599670067
 20
-39.7312102059
 10
237.6650615515
 20
-39.0713071484
 10
238.8435104594
 20
-38.542862283
 10
240.0899367381
 20
-38.1482867823
 10
241.3986532305
 20
-37.8893810038
 10
242.7636885634
 20
-37.7673262753
 10
244.1788143936
 20
-37.7826795045
 10
245.6375738266
 20
-37.9353706381
 10
247.1333108777
 20
-38.2247029815
 10
248.6592008417
 20
-38.6493563776
 10
250.2082814328
 20
-39.2073932303
 10
251.7734845514
 20
-39.8962673454
 10
253.3476685348
 20
-40.7128355485
 10
254.9236507424
 20
-41.6533720259
 10
256.494240329
 20
-42.7135853256
 10
258.0522710545
 20
-43.8886379374
 10
259.5906339821
 20
-45.1731683657
 10
261.1023099144
 20
-46.5613155929
 10
262.5804014211
 20
-48.0467458215
 10
264.0181643095
 20
-49.622681374
 10
265.4090383973
 20
-51.2819316181
 10
266.7466774452
 20
-53.0169257754
 10
268.0249781129
 20
-54.8197474655
 10
269.2381078076
 20
-56.6821708265
 10
270.3805312969
 20
-58.5956980478
 10
271.4470359644
 20
-60.5515981436
 10
272.4327555938
 20
-62.5409467903
 10
273.3331925726
 20
-64.5546670464
 10
274.1442384134
 20
-66.5835707682
 10
274.8621925001
 20
-68.6184005334
 10
275.4837789727
 20
-70.6498718803
 10
276.0061616749
 20
-72.6687156713
 10
276.4269570941
 20
-74.6657203852
 10
276.7442452373
 20
-76.6317741474
 10
276.9565783916
 20
-78.5579063057
 10
277.0629877295
 20
-80.4353283606
 10
277.0629877295
 20
-82.2554740661
 10
276.9565783916
 20
-84.0100385147
 10
276.7442452373
 20
-85.6910160312
 10
276.4269570941
 20
-87.2907367009
 10
276.0061616749
 20
-88.8019013651
 10
275.4837789727
 20
-90.2176149262
 10
274.8621925001
 20
-91.5314178079
 10
274.1442384134
 20
-92.7373154289
 10
273.3331925726
 20
-93.829805555
 10
272.4327555938
 20
-94.8039034043
 10
271.4470359644
 20
-95.6551643918
 10
270.3805312969
 20
-96.3797044088
 10
269.2381078076
 20
-96.9742175454
 10
268.0249781129
 20
-97.4359911745
 10
266.7466774452
 20
-97.762918329
 10
265.4090383973
 20
-97.9535073152
 10
264.0181643095
 20
-98.0068885193
 10
262.5804014211
 20
-97.9228183752
 10
261.1023099144
 20
-97.7016804755
 10
259.5906339821
 20
-97.3444838218
 10
258.0522710545
 20
-96.8528582206
 10
256.494240329
 20
-96.2290468466
 10
254.9236507424
 20
-95.4758960081
 10
253.3476685348
 20
-94.5968421597
 10
251.7734845514
 20
-93.5958962224
 10
250.2082814328
 20
-92.4776252829
 10
248.6592008417
 20
-91.2471317551
 10
247.1333108777
 20
-89.9100300988
 10
245.6375738266
 20
-88.472421202
 10
244.1788143936
 20
-86.9408645444
 10
242.7636885634
 20
-85.3223482679
 10
241.3986532305
 20
-83.6242572909
 10
240.0899367381
 20
-81.8543396132
 10
238.8435104594
 20
-80.020670963
 10
237.6650615515
 20
-78.13161795
 10
236.5599670067
 20
-76.1957998897
 10
235.5332691178
 20
-74.2220494759
 10
234.5896524719
 20
-72.2193724791
 10
233.7334225751
 20
-70.196906655
 10
232.9684862083
 20
-68.1638800515
 10
232.2983336005
 20
-66.1295689024
 10
231.7260225044
 20
-64.1032553032
 10
231.2541642443
 20
-62.0941848578
 10
230.8849118012
 20
-60.111524494
 10
230.6199499893
 20
-58.1643206364
 10
230.4604877686
 20
-56.2614579293
 10
230.4072527286
 20
-54.4116186991
  0
LWPOLYLINE
  5
C8
330
1F
100
AcDbEntity
  8
0
  6
Continuous
 62
     7
370
    25
100
AcDbPolyline
 90
       66
 70
   128
 43
0.0
 10
315.1681367166
 20
38.0131553296
 10
315.3548593349
 20
38.119636289
 10
316.9095846153
 20
38.9097206479
 10
318.5346808261
 20
39.5683295931
 10
320.2261710845
 20
40.093851398
 10
321.9799160305
 20
40.4850000229
 10
323.7916239563
 20
40.7408182614
 10
325.6568613091
 20
40.8606800834
 10
327.5710635404
 20
40.8442921671
 10
329.5295462766
 20
40.6916946163
 10
331.5275167823
 20
40.4032608629
 10
333.5600856889
 20
39.9796967525
 10
335.6222789596
 20
39.4220388176
 10
337.709050062
 20
38.7316517405
 10
339.8152923175
 20
37.9102250141
 10
341.9358513982
 20
36.9597688073
 10
344.0655379409
 20
35.8826090457
 10
346.1991402457
 20
34.6813817196
 10
348.3314370302
 20
33.3590264338
 10
350.4572102068
 20
31.918779213
 10
352.5712576524
 20
30.3641645837
 10
354.6684059386
 20
28.6989869483
 10
356.7435229922
 20
26.9273212756
 10
358.7915306539
 20
25.0535031283
 10
360.8074171059
 20
23.0821180534
 10
362.7862491362
 20
21.0179903606
 10
364.7231842112
 20
18.8661713162
 10
366.6134823262
 20
16.631926782
 10
368.452517605
 20
14.3207243288
 10
370.2357896201
 20
11.9382198562
 10
371.9589344059
 20
9.490243752
 10
373.6177351386
 20
6.9827866239
 10
375.2081324547
 20
4.4219846396
 10
376.7262343855
 20
1.8141045107
 10
378.1683258811
 20
-0.834471843
 10
379.5308779021
 20
-3.5172629115
 10
380.8105560552
 20
-6.2277034553
 10
382.0042287537
 20
-8.9591605724
 10
383.1089748804
 20
-11.7049499295
 10
384.1220909365
 20
-14.4583521198
 10
385.041097657
 20
-17.2126291068
 10
385.8637460787
 20
-19.9610407132
 10
386.588023043
 20
-22.6968611153
 10
387.2121561227
 20
-25.413395302
 10
387.7346179597
 20
-28.103995459
 10
388.1541300022
 20
-30.7620772368
 10
388.4696656341
 20
-33.381135864
 10
388.6804526867
 20
-35.9547620651
 10
388.7859753287
 20
-38.4766577457
 10
388.7859753287
 20
-40.9406514043
 10
388.6804526867
 20
-43.3407132355
 10
388.4696656341
 20
-45.670969886
 10
388.1541300022
 20
-47.9257188272
 10
387.7346179597
 20
-50.0994423106
 10
387.2121561227
 20
-52.1868208706
 10
386.588023043
 20
-54.182746342
 10
385.8637460787
 20
-56.0823343608
 10
385.041097657
 20
-57.8809363168
 10
384.1220909365
 20
-59.5741507296
 10
383.1089748804
 20
-61.1578340198
 10
382.0042287537
 20
-62.628110649
 10
380.8105560552
 20
-63.9813826039
 10
379.5308779021
 20
-65.2143382013
 10
378.1683258811
 20
-66.3239601922
 10
376.7262343855
 20
-67.3075331457
 10
376.1631794074
 20
-67.6448058809
  0
LWPOLYLINE
  5
C9
330
1F
100
AcDbEntity
  8
0
  6
Continuous
 62
     7
370
    25
100
AcDbPolyline
 90
       99
 70
   128
 43
0.0
 10
291.2184359107
 20
3.5533572404
 10
291.2712133786
 20
5.9861292743
 10
291.4294166271
 20
8.3520123399
 10
291.6926585062
 20
10.645216725
 10
292.0602948191
 20
12.8601305741
 10
292.531425898
 20
14.9913336219
 10
293.1048988062
 20
17.0336104574
 10
293.7793101594
 20
18.9819632869
 10
294.5530095601
 20
20.8316241647
 10
295.4241036362
 20
22.5780666605
 10
296.3904606744
 20
24.2170169369
 10
297.4497158372
 20
25.744464208
 10
298.5992769497
 20
27.1566705544
 10
299.8363308432
 20
28.4501800704
 10
301.1578502395
 20
29.6218273215
 10
302.5606011593
 20
30.6687450906
 10
304.041150836
 20
31.5883713944
 10
305.5958761163
 20
32.3784557533
 10
307.2209723271
 20
33.0370646985
 10
308.9124625855
 20
33.5625865034
 10
310.6662075315
 20
33.9537351283
 10
312.4779154574
 20
34.2095533668
 10
314.3431528101
 20
34.3294151889
 10
316.2573550414
 20
34.3130272725
 10
318.2158377776
 20
34.1604297217
 10
320.2138082833
 20
33.8719959683
 10
322.2463771899
 20
33.4484318579
 10
324.3085704607
 20
32.890773923
 10
326.395341563
 20
32.2003868459
 10
328.5015838185
 20
31.3789601196
 10
330.6221428993
 20
30.4285039127
 10
332.751829442
 20
29.3513441511
 10
334.8854317467
 20
28.1501168251
 10
337.0177285312
 20
26.8277615392
 10
339.1435017078
 20
25.3875143184
 10
341.2575491534
 20
23.8328996891
 10
343.3546974396
 20
22.1677220537
 10
345.4298144932
 20
20.396056381
 10
347.4778221549
 20
18.5222382337
 10
349.4937086069
 20
16.5508531588
 10
351.4725406372
 20
14.486725466
 10
353.4094757122
 20
12.3349064216
 10
355.2997738272
 20
10.1006618874
 10
357.138809106
 20
7.7894594342
 10
358.9220811211
 20
5.4069549616
 10
360.645225907
 20
2.9589788574
 10
362.3040266396
 20
0.4515217293
 10
363.8944239557
 20
-2.109280255
 10
365.4125258865
 20
-4.7171603838
 10
366.8546173821
 20
-7.3657367376
 10
368.2171694031
 20
-10.048527806
 10
369.4968475562
 20
-12.7589683499
 10
370.6905202547
 20
-15.490425467
 10
371.7952663815
 20
-18.2362148241
 10
372.8083824375
 20
-20.9896170144
 10
373.7273891581
 20
-23.7438940014
 10
374.5500375797
 20
-26.4923056078
 10
375.274314544
 20
-29.2281260099
 10
375.8984476237
 20
-31.9446601966
 10
376.4209094607
 20
-34.6352603536
 10
376.8404215032
 20
-37.2933421314
 10
377.1559571351
 20
-39.9124007586
 10
377.3667441877
 20
-42.4860269597
 10
377.4722668298
 20
-45.0079226403
 10
377.4722668298
 20
-47.4719162988
 10
377.3667441877
 20
-49.8719781301
 10
377.1559571351
 20
-52.2022347806
 10
376.8404215032
 20
-54.4569837218
 10
376.4209094607
 20
-56.6307072052
 10
375.8984476237
 20
-58.7180857652
 10
375.274314544
 20
-60.7140112366
 10
374.5500375797
 20
-62.6135992554
 10
373.7273891581
 20
-64.4122012114
 10
372.8083824375
 20
-66.1054156242
 10
371.7952663815
 20
-67.6890989144
 10
370.6905202547
 20
-69.1593755436
 10
369.4968475562
 20
-70.5126474985
 10
368.2171694031
 20
-71.7456030959
 10
366.8546173821
 20
-72.8552250868
 10
365.4125258865
 20
-73.8387980403
 10
363.8944239557
 20
-74.6939149885
 10
362.3040266396
 20
-75.4184833169
 10
360.6452259069
 20
-76.0107298855
 10
358.9220811211
 20
-76.4692053677
 10
357.138809106
 20
-76.7927877971
 10
355.2997738272
 20
-76.9806853132
 10
353.4094757122
 20
-77.0324380995
 10
351.4725406372
 20
-76.947919508
 10
349.4937086069
 20
-76.7273363701
 10
347.4778221549
 20
-76.3712284896
 10
345.4298144932
 20
-75.8804673221
 10
343.3546974396
 20
-75.2562538426
 10
341.2575491534
 20
-74.5001156058
 10
339.1435017078
 20
-73.6139030089
 10
337.0177285312
 20
-72.5997847626
 10
334.8854317467
 20
-71.4602425841
 10
332.751829442
 20
-70.1980651241
 10
330.6221428993
 20
-68.8163411423
 10
329.042546571
 20
-67.7122405672
  0
ARC
  5
CA
330
1F
100
AcDbEntity
  8
0
  6
Continuous
 62
     7
370
    25
100
AcDbCircle
 10
354.4538118352
 20
3.6665087496
 30
0.0
 40
63.23547715940156
100
AcDbArc
 50
180.1025232619
 51
185.8316410703
  0
LWPOLYLINE
  5
CB
330
1F
100
AcDbEntity
  8
0
  6
Continuous
 62
     7
370
    25
100
AcDbPolyline
 90
       70
 70
   128
 43
0.0
 10
304.7063681467
 20
11.22263602
 10
305.1623499028
 20
12.0763587009
 10
306.0292685952
 20
13.4731655958
 10
306.988569986
 20
14.7563960538
 10
308.0371250334
 20
15.921864444
 10
309.1715135689
 20
16.9657692506
 10
310.3880354527
 20
17.8847054732
 10
311.6827226435
 20
18.6756757329
 10
313.0513521406
 20
19.336100049
 10
314.4894597591
 20
19.8638242547
 10
315.9923546909
 20
20.2571270233
 10
317.5551348051
 20
20.514725483
 10
319.1727026377
 20
20.6357794011
 10
320.8397820188
 20
20.6198939249
 10
322.5509352819
 20
20.4671208695
 10
324.3005810007
 20
20.1779585488
 10
326.0830121946
 20
19.7533501503
 10
327.8924149434
 20
19.1946806583
 10
329.7228873515
 20
18.5037723366
 10
331.5684587984
 20
17.6828787845
 10
333.4231094137
 20
16.7346775861
 10
335.2807897124
 20
15.6622615766
 10
337.1354403276
 20
14.4691287543
 10
338.9810117745
 20
13.1591708703
 10
340.8114841827
 20
11.7366607349
 10
342.6208869315
 20
10.2062382807
 10
344.4033181254
 20
8.5728954275
 10
346.1529638442
 20
6.8419598002
 10
347.8641171072
 20
5.019077351
 10
349.5311964883
 20
3.1101939437
 10
351.148764321
 20
1.1215359591
 10
352.7115444352
 20
-0.9404100138
 10
354.214439367
 20
-3.0689183358
 10
355.6525469855
 20
-5.2570462551
 10
357.0211764826
 20
-7.4976565534
 10
358.3158636733
 20
-9.7834408254
 10
359.5323855572
 20
-12.1069433181
 10
360.6667740926
 20
-14.4605852493
 10
361.7153291401
 20
-16.8366895281
 10
362.6746305309
 20
-19.2275057963
 10
363.5415492233
 20
-21.6252357082
 10
364.3132575088
 20
-24.0220583672
 10
364.9872382352
 20
-26.4101558359
 10
365.5612930176
 20
-28.7817386367
 10
366.0335494086
 20
-31.1290711596
 10
366.4024670061
 20
-33.4444968937
 10
366.6668424773
 20
-35.7204634015
 10
366.8258134846
 20
-37.9495469534
 10
366.8788614976
 20
-40.1244767422
 10
366.8258134846
 20
-42.2381585988
 10
366.6668424773
 20
-44.2836981325
 10
366.4024670061
 20
-46.2544232184
 10
366.0335494086
 20
-48.143905761
 10
365.5612930176
 20
-49.9459826609
 10
364.9872382352
 20
-51.6547759179
 10
364.3132575088
 20
-53.2647118035
 10
363.5415492233
 20
-54.7705390414
 10
362.6746305309
 20
-56.1673459363
 10
361.7153291401
 20
-57.4505763943
 10
360.6667740926
 20
-58.6160447845
 10
359.5323855572
 20
-59.6599495911
 10
358.3158636733
 20
-60.5788858137
 10
357.0211764826
 20
-61.3698560734
 10
355.6525469855
 20
-62.0302803895
 10
354.214439367
 20
-62.5580045952
 10
352.7115444352
 20
-62.9513073638
 10
351.148764321
 20
-63.2089058235
 10
349.5311964883
 20
-63.3299597416
 10
347.8641171072
 20
-63.3140742653
 10
347.7314317431
 20
-63.3070355731
  0
ENDSEC
  0
SECTION
  2
OBJECTS
  0
DICTIONARY
  5
C
330
0
100
AcDbDictionary
281
     1
  3
ACAD_GROUP
350
D
  3
ACAD_LAYOUT
350
1A
  3
ACAD_MLINESTYLE
350
17
  3
ACAD_PLOTSETTINGS
350
19
  3
ACAD_PLOTSTYLENAME
350
E
  3
ACAD_SCALELIST
350
47
  0
DICTIONARY
  5
D
102
{ACAD_REACTORS
330
C
102
}
330
C
100
AcDbDictionary
281
     1
  0
DICTIONARY
  5
1A
102
{ACAD_REACTORS
330
C
102
}
330
C
100
AcDbDictionary
281
     1
  3
Layout1
350
1E
  3
Layout2
350
26
  3
Model
350
22
  0
DICTIONARY
  5
17
102
{ACAD_REACTORS
330
C
102
}
330
C
100
AcDbDictionary
281
     1
  3
Standard
350
18
  0
DICTIONARY
  5
19
102
{ACAD_REACTORS
330
C
102
}
330
C
100
AcDbDictionary
281
     1
  0
ACDBDICTIONARYWDFLT
  5
E
102
{ACAD_REACTORS
330
C
102
}
330
C
100
AcDbDictionary
281
     1
  3
Normal
350
F
100
AcDbDictionaryWithDefault
340
F
  0
DICTIONARY
  5
47
102
{ACAD_REACTORS
330
C
102
}
330
C
100
AcDbDictionary
281
     1
  3
A0
350
48
  3
A1
350
49
  3
A2
350
4A
  3
A3
350
4B
  3
A4
350
4C
  3
A5
350
4D
  3
A6
350
4E
  3
A7
350
4F
  3
A8
350
50
  3
A9
350
51
  3
B0
350
52
  3
B1
350
53
  3
B2
350
54
  3
B3
350
55
  3
B4
350
56
  3
B5
350
57
  3
B6
350
58
  3
B7
350
59
  3
B8
350
5A
  3
B9
350
5B
  3
C0
350
5C
  3
C1
350
5D
  3
C2
350
5E
  3
C3
350
5F
  3
C4
350
60
  3
C5
350
61
  3
C6
350
62
  3
C7
350
63
  3
C8
350
64
  3
C9
350
65
  3
D0
350
66
  3
D1
350
67
  3
D2
350
68
  0
LAYOUT
  5
1E
102
{ACAD_REACTORS
330
1A
102
}
330
1A
100
AcDbPlotSettings
  1

  2
none_device
  4

  6

 40
0.0
 41
0.0
 42
0.0
 43
0.0
 44
0.0
 45
0.0
 46
0.0
 47
0.0
 48
0.0
 49
0.0
140
0.0
141
0.0
142
1.0
143
1.0
 70
   688
 72
     1
 73
     0
 74
     5
  7

 75
    16
147
1.0
148
0.0
149
0.0
100
AcDbLayout
  1
Layout1
 70
     1
 71
     1
 10
0.0
 20
0.0
 11
420.0
 21
297.0
 12
0.0
 22
0.0
 32
0.0
 14
1.0000000000E+20
 24
1.0000000000E+20
 34
1.0000000000E+20
 15
-1.0000000000E+20
 25
-1.0000000000E+20
 35
-1.0000000000E+20
146
0.0
 13
0.0
 23
0.0
 33
0.0
 16
1.0
 26
0.0
 36
0.0
 17
0.0
 27
1.0
 37
0.0
 76
     0
330
1B
  0
LAYOUT
  5
26
102
{ACAD_REACTORS
330
1A
102
}
330
1A
100
AcDbPlotSettings
  1

  2
none_device
  4

  6

 40
0.0
 41
0.0
 42
0.0
 43
0.0
 44
0.0
 45
0.0
 46
0.0
 47
0.0
 48
0.0
 49
0.0
140
0.0
141
0.0
142
1.0
143
1.0
 70
   688
 72
     1
 73
     0
 74
     5
  7

 75
    16
147
1.0
148
0.0
149
0.0
100
AcDbLayout
  1
Layout2
 70
     1
 71
     2
 10
0.0
 20
0.0
 11
0.0
 21
0.0
 12
0.0
 22
0.0
 32
0.0
 14
0.0
 24
0.0
 34
0.0
 15
0.0
 25
0.0
 35
0.0
146
0.0
 13
0.0
 23
0.0
 33
0.0
 16
1.0
 26
0.0
 36
0.0
 17
0.0
 27
1.0
 37
0.0
 76
     0
330
23
  0
LAYOUT
  5
22
102
{ACAD_REACTORS
330
1A
102
}
330
1A
100
AcDbPlotSettings
  1

  2
none_device
  4
Letter_(8.50_x_11.00_Inches)
  6

 40
6.35
 41
6.35
 42
6.35000508
 43
6.35000508
 44
215.9
 45
279.4
 46
0.0
 47
0.0
 48
0.0
 49
0.0
140
0.0
141
0.0
142
1.0
143
1.0
 70
  1712
 72
     1
 73
     0
 74
     0
  7

 75
     0
147
1.0
148
0.0
149
0.0
100
AcDbLayout
  1
Model
 70
     1
 71
     0
 10
0.0
 20
0.0
 11
279.4
 21
215.9
 12
0.0
 22
0.0
 32
0.0
 14
0.0
 24
0.0
 34
0.0
 15
279.4
 25
215.9
 35
0.0
146
0.0
 13
0.0
 23
0.0
 33
0.0
 16
1.0
 26
0.0
 36
0.0
 17
0.0
 27
1.0
 37
0.0
 76
     0
330
1F
331
29
  0
MLINESTYLE
  5
18
102
{ACAD_REACTORS
330
17
102
}
330
17
100
AcDbMlineStyle
  2
Standard
 70
     0
  3

 62
   256
 51
90.0
 52
90.0
 71
     2
 49
0.5
 62
   256
  6
BYLAYER
 49
-0.5
 62
   256
  6
BYLAYER
  0
ACDBPLACEHOLDER
  5
F
102
{ACAD_REACTORS
330
E
102
}
330
E
  0
SCALE
  5
48
102
{ACAD_REACTORS
330
47
102
}
330
47
100
AcDbScale
 70
     0
300
1:1
140
1.0
141
1.0
290
     1
  0
SCALE
  5
49
102
{ACAD_REACTORS
330
47
102
}
330
47
100
AcDbScale
 70
     0
300
1:2
140
1.0
141
2.0
290
     0
  0
SCALE
  5
4A
102
{ACAD_REACTORS
330
47
102
}
330
47
100
AcDbScale
 70
     0
300
1:4
140
1.0
141
4.0
290
     0
  0
SCALE
  5
4B
102
{ACAD_REACTORS
330
47
102
}
330
47
100
AcDbScale
 70
     0
300
1:5
140
1.0
141
5.0
290
     0
  0
SCALE
  5
4C
102
{ACAD_REACTORS
330
47
102
}
330
47
100
AcDbScale
 70
     0
300
1:8
140
1.0
141
8.0
290
     0
  0
SCALE
  5
4D
102
{ACAD_REACTORS
330
47
102
}
330
47
100
AcDbScale
 70
     0
300
1:10
140
1.0
141
10.0
290
     0
  0
SCALE
  5
4E
102
{ACAD_REACTORS
330
47
102
}
330
47
100
AcDbScale
 70
     0
300
1:16
140
1.0
141
16.0
290
     0
  0
SCALE
  5
4F
102
{ACAD_REACTORS
330
47
102
}
330
47
100
AcDbScale
 70
     0
300
1:20
140
1.0
141
20.0
290
     0
  0
SCALE
  5
50
102
{ACAD_REACTORS
330
47
102
}
330
47
100
AcDbScale
 70
     0
300
1:30
140
1.0
141
30.0
290
     0
  0
SCALE
  5
51
102
{ACAD_REACTORS
330
47
102
}
330
47
100
AcDbScale
 70
     0
300
1:40
140
1.0
141
40.0
290
     0
  0
SCALE
  5
52
102
{ACAD_REACTORS
330
47
102
}
330
47
100
AcDbScale
 70
     0
300
1:50
140
1.0
141
50.0
290
     0
  0
SCALE
  5
53
102
{ACAD_REACTORS
330
47
102
}
330
47
100
AcDbScale
 70
     0
300
1:100
140
1.0
141
100.0
290
     0
  0
SCALE
  5
54
102
{ACAD_REACTORS
330
47
102
}
330
47
100
AcDbScale
 70
     0
300
2:1
140
2.0
141
1.0
290
     0
  0
SCALE
  5
55
102
{ACAD_REACTORS
330
47
102
}
330
47
100
AcDbScale
 70
     0
300
4:1
140
4.0
141
1.0
290
     0
  0
SCALE
  5
56
102
{ACAD_REACTORS
330
47
102
}
330
47
100
AcDbScale
 70
     0
300
8:1
140
8.0
141
1.0
290
     0
  0
SCALE
  5
57
102
{ACAD_REACTORS
330
47
102
}
330
47
100
AcDbScale
 70
     0
300
10:1
140
10.0
141
1.0
290
     0
  0
SCALE
  5
58
102
{ACAD_REACTORS
330
47
102
}
330
47
100
AcDbScale
 70
     0
300
100:1
140
100.0
141
1.0
290
     0
  0
SCALE
  5
59
102
{ACAD_REACTORS
330
47
102
}
330
47
100
AcDbScale
 70
     0
300
1/128" = 1'-0"
140
0.0078125
141
12.0
290
     0
  0
SCALE
  5
5A
102
{ACAD_REACTORS
330
47
102
}
330
47
100
AcDbScale
 70
     0
300
1/64" = 1'-0"
140
0.015625
141
12.0
290
     0
  0
SCALE
  5
5B
102
{ACAD_REACTORS
330
47
102
}
330
47
100
AcDbScale
 70
     0
300
1/32" = 1'-0"
140
0.03125
141
12.0
290
     0
  0
SCALE
  5
5C
102
{ACAD_REACTORS
330
47
102
}
330
47
100
AcDbScale
 70
     0
300
1/16" = 1'-0"
140
0.0625
141
12.0
290
     0
  0
SCALE
  5
5D
102
{ACAD_REACTORS
330
47
102
}
330
47
100
AcDbScale
 70
     0
300
3/32" = 1'-0"
140
0.09375
141
12.0
290
     0
  0
SCALE
  5
5E
102
{ACAD_REACTORS
330
47
102
}
330
47
100
AcDbScale
 70
     0
300
1/8" = 1'-0"
140
0.125
141
12.0
290
     0
  0
SCALE
  5
5F
102
{ACAD_REACTORS
330
47
102
}
330
47
100
AcDbScale
 70
     0
300
3/16" = 1'-0"
140
0.1875
141
12.0
290
     0
  0
SCALE
  5
60
102
{ACAD_REACTORS
330
47
102
}
330
47
100
AcDbScale
 70
     0
300
1/4" = 1'-0"
140
0.25
141
12.0
290
     0
  0
SCALE
  5
61
102
{ACAD_REACTORS
330
47
102
}
330
47
100
AcDbScale
 70
     0
300
3/8" = 1'-0"
140
0.375
141
12.0
290
     0
  0
SCALE
  5
62
102
{ACAD_REACTORS
330
47
102
}
330
47
100
AcDbScale
 70
     0
300
1/2" = 1'-0"
140
0.5
141
12.0
290
     0
  0
SCALE
  5
63
102
{ACAD_REACTORS
330
47
102
}
330
47
100
AcDbScale
 70
     0
300
3/4" = 1'-0"
140
0.75
141
12.0
290
     0
  0
SCALE
  5
64
102
{ACAD_REACTORS
330
47
102
}
330
47
100
AcDbScale
 70
     0
300
1" = 1'-0"
140
1.0
141
12.0
290
     0
  0
SCALE
  5
65
102
{ACAD_REACTORS
330
47
102
}
330
47
100
AcDbScale
 70
     0
300
1-1/2" = 1'-0"
140
1.5
141
12.0
290
     0
  0
SCALE
  5
66
102
{ACAD_REACTORS
330
47
102
}
330
47
100
AcDbScale
 70
     0
300
3" = 1'-0"
140
3.0
141
12.0
290
     0
  0
SCALE
  5
67
102
{ACAD_REACTORS
330
47
102
}
330
47
100
AcDbScale
 70
     0
300
6" = 1'-0"
140
6.0
141
12.0
290
     0
  0
SCALE
  5
68
102
{ACAD_REACTORS
330
47
102
}
330
47
100
AcDbScale
 70
     0
300
1'-0" = 1'-0"
140
12.0
141
12.0
290
     0
  0
ENDSEC
  0
EOF
